BUG Media - Post Songs, Announcements, Events

  • Dust in the Wind

    Sharon Baird posted on September 10, 2013 15:09

    Download the Lyrics and Chords

    Dust in the Wind – Kansas

    Strumming pattern is shown in the file, unable to cut/paste it here!  The opening riff uses the same pattern but add the A string on these frets:

    (C chord)  1st (A) string fret  5 – 3 – 2 – 5

    (Am chord)  1st  (A) string fret  3 – 2 – 5 – 3

    Play that X 2, then go right into the song!

     

    I [C] close [G] my [Am] eyes, [G] only for a [Dm] moment and a [Am] moment´s gone.

    [C] All [G] my [Am] dreams, [G] pass before my [Dm] eyes a curi-[Am]osity.

    [D] Dust [G] in the [Am] wind, [D] all we are is [G] dust in the [Am] wind.

     

     

    [C] Same [G] old [Am] song, [G] just a drop of [Dm] water in the [Am] endless sea.

    [C] All [G] we [Am] do, [G] crumbles to the [Dm] ground though we re [Am] fuse to see.

    [D] Dust [G] in the [Am] wind, [D] all we are is [G] dust in the [Am] wind.

     

     

    [C] Don't [G] hang [Am] on, [G] nothing lasts for [Dm] ever but the [Am] earth and sky.

    It [C] slips [G] a [Am]way [G] all your money [Dm] won´t another [Am] minute buy.

    [D] Dust [G] in the [Am] wind, [D] all we are is [G] dust in the [Am] wind.

    [D] Dust [G] in the [Am] wind, [D] everything  is [G] dust in the [Am] wind.

    A video for this song:

    video showing the suggested finger picking


    Mike Lynch using same chords
    Posted in: Individual Songs, September 2013 - Labour Day - Anything Goes (1 Comments)

Comments

Claude Lacelle
# Claude Lacelle
Sunday, September 15, 2013 2:58 PM
Hi Sharon,

Very nice, so here is the Ukele Tab (I think I got it right) for your opening ...


{sot}
|[C]
A|5--------5------|3---------3-----|2--------2------|5--------5------|
E|-----0--------0-|-----0--------0-|-----0--------0-|-----0-------0--|
C|----0-------0---|----0-------0---|----0-------0---|----0-------0---|
G|0-------0-------|0-------0-------|0-------0-------|0-------0-------|

|[Am]
A|3--------3------|2--------2------|5--------5------|3--------3------|
E|-----0-------0--|-----0-------0--|-----0-------0--|-----0-------0--|
C|----0-------0---|----0-------0---|----0-------0---|----0-------0---|
G|2-------2-------|2-------2-------|2-------2-------|2-------0-------|

Play RIFF Twice then go right into the song!
{eot}

Please let me know if you see any errors.

Claude
____________

11143